ISO-10303-21;
HEADER;
FILE_DESCRIPTION (( 'STEP AP203' ),
    '1' );
FILE_NAME ('BK7-NPBSC-10-700-1000.STEP',
    '2020-12-22T02:09:42',
    ( '' ),
    ( '' ),
    'SwSTEP 2.0',
    'SolidWorks 2020',
    '' );
FILE_SCHEMA (( 'CONFIG_CONTROL_DESIGN' ));
ENDSEC;

DATA;
#1 = DATE_AND_TIME ( #127, #50 ) ;
#2 = ORIENTED_EDGE ( 'NONE', *, *, #320, .T. ) ;
#3 = CC_DESIGN_APPROVAL ( #17, ( #81 ) ) ;
#4 = DIRECTION ( 'NONE',  ( -0.7071067811865475727, -0.7071067811865474617, 0.000000000000000000 ) ) ;
#5 = EDGE_LOOP ( 'NONE', ( #130, #243, #2, #305 ) ) ;
#6 = CARTESIAN_POINT ( 'NONE',  ( -5.000000000000000888, -4.999999999999998224, 5.000000000000000000 ) ) ;
#7 = AXIS2_PLACEMENT_3D ( 'NONE', #300, #180, #283 ) ;
#8 = CARTESIAN_POINT ( 'NONE',  ( 5.000000000000002665, 5.000000000000000000, -5.000000000000000000 ) ) ;
#9 = APPROVAL_ROLE ( '' ) ;
#10 = ORIENTED_EDGE ( 'NONE', *, *, #199, .F. ) ;
#11 = CARTESIAN_POINT ( 'NONE',  ( -4.999999999999999112, 5.000000000000001776, 5.000000000000000000 ) ) ;
#12 = ORIENTED_EDGE ( 'NONE', *, *, #46, .T. ) ;
#13 = DIRECTION ( 'NONE',  ( 1.734723475976807094E-16, 1.000000000000000000, -0.000000000000000000 ) ) ;
#14 = VECTOR ( 'NONE', #143, 1000.000000000000000 ) ;
#15 = FACE_OUTER_BOUND ( 'NONE', #213, .T. ) ;
#16 = CARTESIAN_POINT ( 'NONE',  ( -4.999999999999999112, -5.000000000000000000, 5.000000000000000000 ) ) ;
#17 = APPROVAL ( #79, 'UNSPECIFIED' ) ;
#18 = VERTEX_POINT ( 'NONE', #203 ) ;
#19 = APPROVAL_STATUS ( 'not_yet_approved' ) ;
#20 = AXIS2_PLACEMENT_3D ( 'NONE', #110, #132, #177 ) ;
#21 = VECTOR ( 'NONE', #236, 1000.000000000000000 ) ;
#22 = DIRECTION ( 'NONE',  ( 1.000000000000000000, 0.000000000000000000, 0.000000000000000000 ) ) ;
#23 =( LENGTH_UNIT ( ) NAMED_UNIT ( * ) SI_UNIT ( .MILLI., .METRE. ) );
#24 = EDGE_CURVE ( 'NONE', #18, #67, #209, .T. ) ;
#25 = CC_DESIGN_APPROVAL ( #246, ( #61 ) ) ;
#26 = MECHANICAL_CONTEXT ( 'NONE', #30, 'mechanical' ) ;
#27 = COORDINATED_UNIVERSAL_TIME_OFFSET ( 8, 0, .AHEAD. ) ;
#28 = ADVANCED_FACE ( 'NONE', ( #34 ), #86, .F. ) ;
#29 = ORIENTED_EDGE ( 'NONE', *, *, #38, .T. ) ;
#30 = APPLICATION_CONTEXT ( 'configuration controlled 3d designs of mechanical parts and assemblies' ) ;
#31 = DIRECTION ( 'NONE',  ( 2.220446049250313081E-16, 1.000000000000000000, 0.000000000000000000 ) ) ;
#32 = AXIS2_PLACEMENT_3D ( 'NONE', #214, #92, #68 ) ;
#33 = ORIENTED_EDGE ( 'NONE', *, *, #320, .F. ) ;
#34 = FACE_OUTER_BOUND ( 'NONE', #218, .T. ) ;
#35 = CARTESIAN_POINT ( 'NONE',  ( 5.000000000000000888, 5.000000000000001776, 5.000000000000000000 ) ) ;
#36 = PLANE ( 'NONE',  #20 ) ;
#37 = DIRECTION ( 'NONE',  ( -0.7071067811865474617, 0.7071067811865475727, 0.000000000000000000 ) ) ;
#38 = EDGE_CURVE ( 'NONE', #235, #167, #282, .T. ) ;
#39 = DATE_TIME_ROLE ( 'classification_date' ) ;
#40 = PLANE ( 'NONE',  #107 ) ;
#41 = DATE_AND_TIME ( #259, #240 ) ;
#42 = CARTESIAN_POINT ( 'NONE',  ( 5.000000000000000888, -5.000000000000000000, -5.000000000000000000 ) ) ;
#43 = VECTOR ( 'NONE', #321, 1000.000000000000000 ) ;
#44 = SECURITY_CLASSIFICATION_LEVEL ( 'unclassified' ) ;
#45 = CARTESIAN_POINT ( 'NONE',  ( 5.000000000000002665, 5.000000000000000000, 5.000000000000000000 ) ) ;
#46 = EDGE_CURVE ( 'NONE', #190, #315, #62, .T. ) ;
#47 = CARTESIAN_POINT ( 'NONE',  ( -5.000000000000000888, -4.999999999999998224, 5.000000000000000000 ) ) ;
#48 = ORIENTED_EDGE ( 'NONE', *, *, #301, .F. ) ;
#49 = COORDINATED_UNIVERSAL_TIME_OFFSET ( 8, 0, .AHEAD. ) ;
#50 = LOCAL_TIME ( 10, 9, 42.00000000000000000, #27 ) ;
#51 = ADVANCED_FACE ( 'NONE', ( #88 ), #63, .F. ) ;
#52 = CARTESIAN_POINT ( 'NONE',  ( 0.000000000000000000, 0.000000000000000000, 0.000000000000000000 ) ) ;
#53 = CARTESIAN_POINT ( 'NONE',  ( -4.999999999999999112, 5.000000000000001776, 5.000000000000000000 ) ) ;
#54 = DATE_AND_TIME ( #75, #146 ) ;
#55 = VECTOR ( 'NONE', #94, 1000.000000000000000 ) ;
#56 = CARTESIAN_POINT ( 'NONE',  ( -4.999999999999999112, -5.000000000000000000, 5.000000000000000000 ) ) ;
#57 = CC_DESIGN_DATE_AND_TIME_ASSIGNMENT ( #41, #39, ( #61 ) ) ;
#58 = ORIENTED_EDGE ( 'NONE', *, *, #76, .T. ) ;
#59 = VERTEX_POINT ( 'NONE', #133 ) ;
#60 = CARTESIAN_POINT ( 'NONE',  ( 0.000000000000000000, 0.000000000000000000, 5.000000000000000000 ) ) ;
#61 = SECURITY_CLASSIFICATION ( '', '', #44 ) ;
#62 = LINE ( 'NONE', #6, #145 ) ;
#63 = PLANE ( 'NONE',  #165 ) ;
#64 = CARTESIAN_POINT ( 'NONE',  ( -5.000000000000000888, -4.999999999999998224, -5.000000000000000000 ) ) ;
#65 = ADVANCED_FACE ( 'NONE', ( #134 ), #36, .F. ) ;
#66 = VECTOR ( 'NONE', #22, 1000.000000000000000 ) ;
#67 = VERTEX_POINT ( 'NONE', #306 ) ;
#68 = DIRECTION ( 'NONE',  ( -1.000000000000000000, 4.857225732735059864E-17, 0.000000000000000000 ) ) ;
#69 = PLANE ( 'NONE',  #91 ) ;
#70 = PERSON_AND_ORGANIZATION ( #135, #179 ) ;
#71 = ORIENTED_EDGE ( 'NONE', *, *, #87, .T. ) ;
#72 = ADVANCED_FACE ( 'NONE', ( #155 ), #106, .F. ) ;
#73 = CARTESIAN_POINT ( 'NONE',  ( -4.999999999999999112, 5.000000000000001776, -5.000000000000000000 ) ) ;
#74 = EDGE_LOOP ( 'NONE', ( #33, #105, #187 ) ) ;
#75 = CALENDAR_DATE ( 2020, 22, 12 ) ;
#76 = EDGE_CURVE ( 'NONE', #83, #235, #253, .T. ) ;
#77 = LINE ( 'NONE', #173, #43 ) ;
#78 = APPROVAL_PERSON_ORGANIZATION ( #318, #304, #122 ) ;
#79 = APPROVAL_STATUS ( 'not_yet_approved' ) ;
#80 = DATE_TIME_ROLE ( 'creation_date' ) ;
#81 = PRODUCT_DEFINITION ( 'UNKNOWN', '', #215, #211 ) ;
#82 = EDGE_LOOP ( 'NONE', ( #141, #307, #12, #201 ) ) ;
#83 = VERTEX_POINT ( 'NONE', #233 ) ;
#84 = DIRECTION ( 'NONE',  ( 1.000000000000000000, 0.000000000000000000, 0.000000000000000000 ) ) ;
#85 = CLOSED_SHELL ( 'NONE', ( #51, #251, #208, #126, #28 ) ) ;
#86 = PLANE ( 'NONE',  #7 ) ;
#87 = EDGE_CURVE ( 'NONE', #302, #174, #205, .T. ) ;
#88 = FACE_OUTER_BOUND ( 'NONE', #5, .T. ) ;
#89 = CARTESIAN_POINT ( 'NONE',  ( -4.999999999999999112, -5.000000000000000000, -5.000000000000000000 ) ) ;
#90 = AXIS2_PLACEMENT_3D ( 'NONE', #60, #137, #153 ) ;
#91 = AXIS2_PLACEMENT_3D ( 'NONE', #192, #221, #168 ) ;
#92 = DIRECTION ( 'NONE',  ( -4.857225732735059864E-17, -1.000000000000000000, 0.000000000000000000 ) ) ;
#93 = LINE ( 'NONE', #11, #21 ) ;
#94 = DIRECTION ( 'NONE',  ( 1.734723475976807094E-16, 1.000000000000000000, -0.000000000000000000 ) ) ;
#95 = CARTESIAN_POINT ( 'NONE',  ( 5.000000000000000888, 5.000000000000001776, 5.000000000000000000 ) ) ;
#96 = LINE ( 'NONE', #102, #245 ) ;
#97 = EDGE_CURVE ( 'NONE', #59, #238, #303, .T. ) ;
#98 = LINE ( 'NONE', #200, #154 ) ;
#99 = VECTOR ( 'NONE', #164, 1000.000000000000000 ) ;
#100 = APPROVAL_PERSON_ORGANIZATION ( #186, #246, #9 ) ;
#101 = APPLICATION_PROTOCOL_DEFINITION ( 'international standard', 'config_control_design', 1994, #308 ) ;
#102 = CARTESIAN_POINT ( 'NONE',  ( 5.000000000000000888, 5.000000000000001776, 5.000000000000000000 ) ) ;
#103 = ORIENTED_EDGE ( 'NONE', *, *, #197, .T. ) ;
#104 = APPROVAL_PERSON_ORGANIZATION ( #172, #17, #149 ) ;
#105 = ORIENTED_EDGE ( 'NONE', *, *, #224, .F. ) ;
#106 = PLANE ( 'NONE',  #222 ) ;
#107 = AXIS2_PLACEMENT_3D ( 'NONE', #241, #291, #311 ) ;
#108 = VECTOR ( 'NONE', #314, 1000.000000000000000 ) ;
#109 = SHAPE_DEFINITION_REPRESENTATION ( #294, #194 ) ;
#110 = CARTESIAN_POINT ( 'NONE',  ( 5.000000000000002665, 5.000000000000000000, 5.000000000000000000 ) ) ;
#111 = CC_DESIGN_PERSON_AND_ORGANIZATION_ASSIGNMENT ( #70, #166, ( #215 ) ) ;
#112 = CARTESIAN_POINT ( 'NONE',  ( 0.000000000000000000, 0.000000000000000000, 5.000000000000000000 ) ) ;
#113 = PLANE ( 'NONE',  #32 ) ;
#114 = COORDINATED_UNIVERSAL_TIME_OFFSET ( 8, 0, .AHEAD. ) ;
#115 = ORIENTED_EDGE ( 'NONE', *, *, #254, .T. ) ;
#116 = LINE ( 'NONE', #144, #55 ) ;
#117 = UNCERTAINTY_MEASURE_WITH_UNIT (LENGTH_MEASURE( 1.000000000000000082E-05 ), #23, 'distance_accuracy_value', 'NONE');
#118 = PERSON_AND_ORGANIZATION ( #135, #179 ) ;
#119 = LINE ( 'NONE', #263, #249 ) ;
#120 = LINE ( 'NONE', #317, #271 ) ;
#121 = VECTOR ( 'NONE', #4, 1000.000000000000000 ) ;
#122 = APPROVAL_ROLE ( '' ) ;
#123 = DATE_AND_TIME ( #147, #256 ) ;
#124 = CC_DESIGN_SECURITY_CLASSIFICATION ( #61, ( #215 ) ) ;
#125 = VECTOR ( 'NONE', #31, 1000.000000000000000 ) ;
#126 = ADVANCED_FACE ( 'NONE', ( #158 ), #258, .T. ) ;
#127 = CALENDAR_DATE ( 2020, 22, 12 ) ;
#128 = EDGE_LOOP ( 'NONE', ( #71, #48, #255, #313 ) ) ;
#129 = EDGE_CURVE ( 'NONE', #18, #302, #231, .T. ) ;
#130 = ORIENTED_EDGE ( 'NONE', *, *, #76, .F. ) ;
#131 = CC_DESIGN_PERSON_AND_ORGANIZATION_ASSIGNMENT ( #118, #237, ( #215 ) ) ;
#132 = DIRECTION ( 'NONE',  ( -1.000000000000000000, 1.734723475976807094E-16, 0.000000000000000000 ) ) ;
#133 = CARTESIAN_POINT ( 'NONE',  ( 5.000000000000000888, -5.000000000000000000, 5.000000000000000000 ) ) ;
#134 = FACE_OUTER_BOUND ( 'NONE', #152, .T. ) ;
#135 = PERSON ( 'UNSPECIFIED', 'UNSPECIFIED', 'UNSPECIFIED', ('UNSPECIFIED'), ('UNSPECIFIED'), ('UNSPECIFIED') ) ;
#136 = CC_DESIGN_PERSON_AND_ORGANIZATION_ASSIGNMENT ( #226, #196, ( #281 ) ) ;
#137 = DIRECTION ( 'NONE',  ( 0.000000000000000000, -0.000000000000000000, 1.000000000000000000 ) ) ;
#138 = APPROVAL_DATE_TIME ( #123, #304 ) ;
#139 = ORIENTED_EDGE ( 'NONE', *, *, #219, .T. ) ;
#140 = EDGE_CURVE ( 'NONE', #190, #235, #193, .T. ) ;
#141 = ORIENTED_EDGE ( 'NONE', *, *, #38, .F. ) ;
#142 = CALENDAR_DATE ( 2020, 22, 12 ) ;
#143 = DIRECTION ( 'NONE',  ( 1.000000000000000000, -4.857225732735059864E-17, 0.000000000000000000 ) ) ;
#144 = CARTESIAN_POINT ( 'NONE',  ( 5.000000000000002665, 5.000000000000000000, 5.000000000000000000 ) ) ;
#145 = VECTOR ( 'NONE', #151, 1000.000000000000000 ) ;
#146 = LOCAL_TIME ( 10, 9, 42.00000000000000000, #274 ) ;
#147 = CALENDAR_DATE ( 2020, 22, 12 ) ;
#148 = APPROVAL_DATE_TIME ( #54, #17 ) ;
#149 = APPROVAL_ROLE ( '' ) ;
#150 = ORIENTED_EDGE ( 'NONE', *, *, #277, .T. ) ;
#151 = DIRECTION ( 'NONE',  ( 2.220446049250313081E-16, 1.000000000000000000, 0.000000000000000000 ) ) ;
#152 = EDGE_LOOP ( 'NONE', ( #103, #234, #220, #206 ) ) ;
#153 = DIRECTION ( 'NONE',  ( 2.220446049250313081E-16, 1.000000000000000000, 0.000000000000000000 ) ) ;
#154 = VECTOR ( 'NONE', #170, 1000.000000000000000 ) ;
#155 = FACE_OUTER_BOUND ( 'NONE', #207, .T. ) ;
#156 = DIRECTION ( 'NONE',  ( 0.7071067811865475727, 0.7071067811865474617, 0.000000000000000000 ) ) ;
#157 = DATE_AND_TIME ( #142, #280 ) ;
#158 = FACE_OUTER_BOUND ( 'NONE', #74, .T. ) ;
#159 = CLOSED_SHELL ( 'NONE', ( #184, #161, #65, #262, #72 ) ) ;
#160 = DIRECTION ( 'NONE',  ( 0.000000000000000000, 1.000000000000000000, 0.000000000000000000 ) ) ;
#161 = ADVANCED_FACE ( 'NONE', ( #183 ), #286, .F. ) ;
#162 = PERSON_AND_ORGANIZATION_ROLE ( 'classification_officer' ) ;
#163 = ORIENTED_EDGE ( 'NONE', *, *, #284, .F. ) ;
#164 = DIRECTION ( 'NONE',  ( -0.000000000000000000, -0.000000000000000000, -1.000000000000000000 ) ) ;
#165 = AXIS2_PLACEMENT_3D ( 'NONE', #35, #37, #156 ) ;
#166 = PERSON_AND_ORGANIZATION_ROLE ( 'design_supplier' ) ;
#167 = VERTEX_POINT ( 'NONE', #73 ) ;
#168 = DIRECTION ( 'NONE',  ( 0.000000000000000000, 0.000000000000000000, 1.000000000000000000 ) ) ;
#169 = DIRECTION ( 'NONE',  ( -0.000000000000000000, 0.000000000000000000, -1.000000000000000000 ) ) ;
#170 = DIRECTION ( 'NONE',  ( -0.000000000000000000, -0.000000000000000000, -1.000000000000000000 ) ) ;
#171 = CC_DESIGN_PERSON_AND_ORGANIZATION_ASSIGNMENT ( #265, #162, ( #61 ) ) ;
#172 = PERSON_AND_ORGANIZATION ( #135, #179 ) ;
#173 = CARTESIAN_POINT ( 'NONE',  ( 5.000000000000000888, 5.000000000000001776, -5.000000000000000000 ) ) ;
#174 = VERTEX_POINT ( 'NONE', #89 ) ;
#175 = CARTESIAN_POINT ( 'NONE',  ( 5.000000000000002665, 5.000000000000000000, 5.000000000000000000 ) ) ;
#176 = ORIENTED_EDGE ( 'NONE', *, *, #224, .T. ) ;
#177 = DIRECTION ( 'NONE',  ( -1.734723475976807094E-16, -1.000000000000000000, 0.000000000000000000 ) ) ;
#178 = DIRECTION ( 'NONE',  ( -0.7071067811865475727, -0.7071067811865474617, 0.000000000000000000 ) ) ;
#179 = ORGANIZATION ( 'UNSPECIFIED', 'UNSPECIFIED', '' ) ;
#180 = DIRECTION ( 'NONE',  ( 0.000000000000000000, -0.000000000000000000, 1.000000000000000000 ) ) ;
#181 = VERTEX_POINT ( 'NONE', #95 ) ;
#182 = COORDINATED_UNIVERSAL_TIME_OFFSET ( 8, 0, .AHEAD. ) ;
#183 = FACE_OUTER_BOUND ( 'NONE', #232, .T. ) ;
#184 = ADVANCED_FACE ( 'NONE', ( #191 ), #40, .F. ) ;
#185 = VECTOR ( 'NONE', #276, 1000.000000000000000 ) ;
#186 = PERSON_AND_ORGANIZATION ( #135, #179 ) ;
#187 = ORIENTED_EDGE ( 'NONE', *, *, #46, .F. ) ;
#188 = CARTESIAN_POINT ( 'NONE',  ( 5.000000000000000888, 5.000000000000001776, 5.000000000000000000 ) ) ;
#189 = PRODUCT_RELATED_PRODUCT_CATEGORY ( 'detail', '', ( #281 ) ) ;
#190 = VERTEX_POINT ( 'NONE', #289 ) ;
#191 = FACE_OUTER_BOUND ( 'NONE', #128, .T. ) ;
#192 = CARTESIAN_POINT ( 'NONE',  ( -5.000000000000000888, -4.999999999999998224, 5.000000000000000000 ) ) ;
#193 = LINE ( 'NONE', #47, #270 ) ;
#194 = ADVANCED_BREP_SHAPE_REPRESENTATION ( 'BK7-NPBSC-10-700-1000', ( #266, #272, #287 ), #312 ) ;
#195 = APPLICATION_PROTOCOL_DEFINITION ( 'international standard', 'config_control_design', 1994, #30 ) ;
#196 = PERSON_AND_ORGANIZATION_ROLE ( 'design_owner' ) ;
#197 = EDGE_CURVE ( 'NONE', #238, #302, #119, .T. ) ;
#198 = CARTESIAN_POINT ( 'NONE',  ( 5.000000000000002665, 5.000000000000000000, -5.000000000000000000 ) ) ;
#199 = EDGE_CURVE ( 'NONE', #315, #167, #93, .T. ) ;
#200 = CARTESIAN_POINT ( 'NONE',  ( -4.999999999999999112, -5.000000000000000000, 5.000000000000000000 ) ) ;
#201 = ORIENTED_EDGE ( 'NONE', *, *, #199, .T. ) ;
#202 = AXIS2_PLACEMENT_3D ( 'NONE', #112, #247, #223 ) ;
#203 = CARTESIAN_POINT ( 'NONE',  ( 5.000000000000002665, 5.000000000000000000, 5.000000000000000000 ) ) ;
#204 = ORIENTED_EDGE ( 'NONE', *, *, #197, .F. ) ;
#205 = LINE ( 'NONE', #8, #185 ) ;
#206 = ORIENTED_EDGE ( 'NONE', *, *, #97, .T. ) ;
#207 = EDGE_LOOP ( 'NONE', ( #230, #204, #228 ) ) ;
#208 = ADVANCED_FACE ( 'NONE', ( #15 ), #113, .F. ) ;
#209 = LINE ( 'NONE', #175, #264 ) ;
#210 = CARTESIAN_POINT ( 'NONE',  ( 5.000000000000000888, -5.000000000000000000, 5.000000000000000000 ) ) ;
#211 = DESIGN_CONTEXT ( 'detailed design', #308, 'design' ) ;
#212 = FACE_OUTER_BOUND ( 'NONE', #82, .T. ) ;
#213 = EDGE_LOOP ( 'NONE', ( #288, #10, #176, #115 ) ) ;
#214 = CARTESIAN_POINT ( 'NONE',  ( 5.000000000000000888, 5.000000000000001776, 5.000000000000000000 ) ) ;
#215 = PRODUCT_DEFINITION_FORMATION_WITH_SPECIFIED_SOURCE ( 'ANY', '', #281, .NOT_KNOWN. ) ;
#216 = EDGE_LOOP ( 'NONE', ( #252, #310, #139 ) ) ;
#217 = CARTESIAN_POINT ( 'NONE',  ( -4.999999999999999112, -5.000000000000000000, -5.000000000000000000 ) ) ;
#218 = EDGE_LOOP ( 'NONE', ( #58, #29, #150 ) ) ;
#219 = EDGE_CURVE ( 'NONE', #59, #18, #116, .T. ) ;
#220 = ORIENTED_EDGE ( 'NONE', *, *, #219, .F. ) ;
#221 = DIRECTION ( 'NONE',  ( 1.000000000000000000, -2.220446049250313081E-16, 0.000000000000000000 ) ) ;
#222 = AXIS2_PLACEMENT_3D ( 'NONE', #229, #257, #84 ) ;
#223 = DIRECTION ( 'NONE',  ( 1.000000000000000000, 0.000000000000000000, 0.000000000000000000 ) ) ;
#224 = EDGE_CURVE ( 'NONE', #315, #181, #260, .T. ) ;
#225 =( NAMED_UNIT ( * ) PLANE_ANGLE_UNIT ( ) SI_UNIT ( $, .RADIAN. ) );
#226 = PERSON_AND_ORGANIZATION ( #135, #179 ) ;
#227 = VECTOR ( 'NONE', #278, 1000.000000000000000 ) ;
#228 = ORIENTED_EDGE ( 'NONE', *, *, #242, .F. ) ;
#229 = CARTESIAN_POINT ( 'NONE',  ( 0.000000000000000000, 0.000000000000000000, -5.000000000000000000 ) ) ;
#230 = ORIENTED_EDGE ( 'NONE', *, *, #87, .F. ) ;
#231 = LINE ( 'NONE', #45, #99 ) ;
#232 = EDGE_LOOP ( 'NONE', ( #261, #268, #163, #290 ) ) ;
#233 = CARTESIAN_POINT ( 'NONE',  ( 5.000000000000000888, 5.000000000000001776, -5.000000000000000000 ) ) ;
#234 = ORIENTED_EDGE ( 'NONE', *, *, #129, .F. ) ;
#235 = VERTEX_POINT ( 'NONE', #295 ) ;
#236 = DIRECTION ( 'NONE',  ( -0.000000000000000000, 0.000000000000000000, -1.000000000000000000 ) ) ;
#237 = PERSON_AND_ORGANIZATION_ROLE ( 'creator' ) ;
#238 = VERTEX_POINT ( 'NONE', #42 ) ;
#239 = LINE ( 'NONE', #217, #108 ) ;
#240 = LOCAL_TIME ( 10, 9, 42.00000000000000000, #114 ) ;
#241 = CARTESIAN_POINT ( 'NONE',  ( 5.000000000000002665, 5.000000000000000000, 5.000000000000000000 ) ) ;
#242 = EDGE_CURVE ( 'NONE', #174, #238, #239, .T. ) ;
#243 = ORIENTED_EDGE ( 'NONE', *, *, #254, .F. ) ;
#244 = PLANE ( 'NONE',  #202 ) ;
#245 = VECTOR ( 'NONE', #299, 1000.000000000000000 ) ;
#246 = APPROVAL ( #292, 'UNSPECIFIED' ) ;
#247 = DIRECTION ( 'NONE',  ( -0.000000000000000000, 0.000000000000000000, 1.000000000000000000 ) ) ;
#248 = AXIS2_PLACEMENT_3D ( 'NONE', #16, #160, #293 ) ;
#249 = VECTOR ( 'NONE', #13, 1000.000000000000000 ) ;
#250 = PERSON_AND_ORGANIZATION_ROLE ( 'creator' ) ;
#251 = ADVANCED_FACE ( 'NONE', ( #212 ), #69, .F. ) ;
#252 = ORIENTED_EDGE ( 'NONE', *, *, #24, .T. ) ;
#253 = LINE ( 'NONE', #309, #121 ) ;
#254 = EDGE_CURVE ( 'NONE', #181, #83, #120, .T. ) ;
#255 = ORIENTED_EDGE ( 'NONE', *, *, #24, .F. ) ;
#256 = LOCAL_TIME ( 10, 9, 42.00000000000000000, #49 ) ;
#257 = DIRECTION ( 'NONE',  ( -0.000000000000000000, 0.000000000000000000, 1.000000000000000000 ) ) ;
#258 = PLANE ( 'NONE',  #90 ) ;
#259 = CALENDAR_DATE ( 2020, 22, 12 ) ;
#260 = LINE ( 'NONE', #188, #14 ) ;
#261 = ORIENTED_EDGE ( 'NONE', *, *, #242, .T. ) ;
#262 = ADVANCED_FACE ( 'NONE', ( #267 ), #244, .T. ) ;
#263 = CARTESIAN_POINT ( 'NONE',  ( 5.000000000000002665, 5.000000000000000000, -5.000000000000000000 ) ) ;
#264 = VECTOR ( 'NONE', #178, 1000.000000000000000 ) ;
#265 = PERSON_AND_ORGANIZATION ( #135, #179 ) ;
#266 = MANIFOLD_SOLID_BREP ( 'Í¹Ì¨-À', #159 ) ;
#267 = FACE_OUTER_BOUND ( 'NONE', #216, .T. ) ;
#268 = ORIENTED_EDGE ( 'NONE', *, *, #97, .F. ) ;
#269 = PERSON_AND_ORGANIZATION ( #135, #179 ) ;
#270 = VECTOR ( 'NONE', #316, 1000.000000000000000 ) ;
#271 = VECTOR ( 'NONE', #169, 1000.000000000000000 ) ;
#272 = MANIFOLD_SOLID_BREP ( '¾µÏ', #85 ) ;
#273 = DIRECTION ( 'NONE',  ( 0.000000000000000000, 0.000000000000000000, 1.000000000000000000 ) ) ;
#274 = COORDINATED_UNIVERSAL_TIME_OFFSET ( 8, 0, .AHEAD. ) ;
#275 = DIRECTION ( 'NONE',  ( 1.000000000000000000, 0.000000000000000000, 0.000000000000000000 ) ) ;
#276 = DIRECTION ( 'NONE',  ( -0.7071067811865475727, -0.7071067811865474617, 0.000000000000000000 ) ) ;
#277 = EDGE_CURVE ( 'NONE', #167, #83, #77, .T. ) ;
#278 = DIRECTION ( 'NONE',  ( -0.000000000000000000, -0.000000000000000000, -1.000000000000000000 ) ) ;
#279 = CC_DESIGN_DATE_AND_TIME_ASSIGNMENT ( #1, #80, ( #81 ) ) ;
#280 = LOCAL_TIME ( 10, 9, 42.00000000000000000, #182 ) ;
#281 = PRODUCT ( 'BK7-NPBSC-10-700-1000', 'BK7-NPBSC-10-700-1000', '', ( #26 ) ) ;
#282 = LINE ( 'NONE', #64, #125 ) ;
#283 = DIRECTION ( 'NONE',  ( 2.220446049250313081E-16, 1.000000000000000000, 0.000000000000000000 ) ) ;
#284 = EDGE_CURVE ( 'NONE', #67, #59, #319, .T. ) ;
#285 = APPROVAL_DATE_TIME ( #157, #246 ) ;
#286 = PLANE ( 'NONE',  #248 ) ;
#287 = AXIS2_PLACEMENT_3D ( 'NONE', #52, #273, #275 ) ;
#288 = ORIENTED_EDGE ( 'NONE', *, *, #277, .F. ) ;
#289 = CARTESIAN_POINT ( 'NONE',  ( -5.000000000000000888, -4.999999999999998224, 5.000000000000000000 ) ) ;
#290 = ORIENTED_EDGE ( 'NONE', *, *, #301, .T. ) ;
#291 = DIRECTION ( 'NONE',  ( 0.7071067811865474617, -0.7071067811865475727, 0.000000000000000000 ) ) ;
#292 = APPROVAL_STATUS ( 'not_yet_approved' ) ;
#293 = DIRECTION ( 'NONE',  ( 0.000000000000000000, -0.000000000000000000, 1.000000000000000000 ) ) ;
#294 = PRODUCT_DEFINITION_SHAPE ( 'NONE', 'NONE',  #81 ) ;
#295 = CARTESIAN_POINT ( 'NONE',  ( -5.000000000000000888, -4.999999999999998224, -5.000000000000000000 ) ) ;
#296 = CC_DESIGN_PERSON_AND_ORGANIZATION_ASSIGNMENT ( #269, #250, ( #81 ) ) ;
#297 = CC_DESIGN_APPROVAL ( #304, ( #215 ) ) ;
#298 =( NAMED_UNIT ( * ) SI_UNIT ( $, .STERADIAN. ) SOLID_ANGLE_UNIT ( ) );
#299 = DIRECTION ( 'NONE',  ( -0.7071067811865475727, -0.7071067811865474617, 0.000000000000000000 ) ) ;
#300 = CARTESIAN_POINT ( 'NONE',  ( 0.000000000000000000, 0.000000000000000000, -5.000000000000000000 ) ) ;
#301 = EDGE_CURVE ( 'NONE', #67, #174, #98, .T. ) ;
#302 = VERTEX_POINT ( 'NONE', #198 ) ;
#303 = LINE ( 'NONE', #210, #227 ) ;
#304 = APPROVAL ( #19, 'UNSPECIFIED' ) ;
#305 = ORIENTED_EDGE ( 'NONE', *, *, #140, .T. ) ;
#306 = CARTESIAN_POINT ( 'NONE',  ( -4.999999999999999112, -5.000000000000000000, 5.000000000000000000 ) ) ;
#307 = ORIENTED_EDGE ( 'NONE', *, *, #140, .F. ) ;
#308 = APPLICATION_CONTEXT ( 'configuration controlled 3d designs of mechanical parts and assemblies' ) ;
#309 = CARTESIAN_POINT ( 'NONE',  ( 5.000000000000000888, 5.000000000000001776, -5.000000000000000000 ) ) ;
#310 = ORIENTED_EDGE ( 'NONE', *, *, #284, .T. ) ;
#311 = DIRECTION ( 'NONE',  ( 0.7071067811865475727, 0.7071067811865474617, 0.000000000000000000 ) ) ;
#312 =( GEOMETRIC_REPRESENTATION_CONTEXT ( 3 ) GLOBAL_UNCERTAINTY_ASSIGNED_CONTEXT ( ( #117 ) ) GLOBAL_UNIT_ASSIGNED_CONTEXT ( ( #23, #225, #298 ) ) REPRESENTATION_CONTEXT ( 'NONE', 'WORKASPACE' ) );
#313 = ORIENTED_EDGE ( 'NONE', *, *, #129, .T. ) ;
#314 = DIRECTION ( 'NONE',  ( 1.000000000000000000, 0.000000000000000000, 0.000000000000000000 ) ) ;
#315 = VERTEX_POINT ( 'NONE', #53 ) ;
#316 = DIRECTION ( 'NONE',  ( -0.000000000000000000, 0.000000000000000000, -1.000000000000000000 ) ) ;
#317 = CARTESIAN_POINT ( 'NONE',  ( 5.000000000000000888, 5.000000000000001776, 5.000000000000000000 ) ) ;
#318 = PERSON_AND_ORGANIZATION ( #135, #179 ) ;
#319 = LINE ( 'NONE', #56, #66 ) ;
#320 = EDGE_CURVE ( 'NONE', #181, #190, #96, .T. ) ;
#321 = DIRECTION ( 'NONE',  ( 1.000000000000000000, -4.857225732735059864E-17, 0.000000000000000000 ) ) ;
ENDSEC;
END-ISO-10303-21;
